Make your own free website on Tripod.com

Damas Gratis - Tengo una piedra

E---------------------------------------------------------------------------------
B------------------0--0--0--------------------------------------------------3-
G------0--0--0-------------0--2--0--2------------0--0--0-----4-2-4---2-------
D-----------------------------------------4--0--------------------------------
A---------------------------------------------------------------------------------
E---------------------------------------------------------------------------------
 
 
yo quiero vivir 
que no me falten  aspirinas     (hace un mini punteito 1 mostrado abajo)
nunca dejar de tomar       (va  seguido con un mini punteo 2)
MINI PUNTEO 1
E-------------------------------------------------------
B-----3--1--0----------------------------------------
G----------------2--0---------------------------------
D-------------------------------------------------------
A-------------------------------------------------------
E-------------------------------------------------------
 
ESTOS PUNTEOS ESTAN MODIFICADOS CON MONTON DE EFECTOS DE PEDALERAS
Y OTRAS MAQUINAS Y APARTE SE HACEN A GRAN VELOCIDAD. 
 
MINI PUNTEO 2
E-------------------------------------
B-------------------------------------
G------0----------0--2-------------
D----------0--0---------------------
A-------------------------------------
E-------------------------------------


 

Volver al Inicio

Atras